ISO-10303-21;
HEADER;
FILE_DESCRIPTION (( 'STEP AP203' ),
    '1' );
FILE_NAME ('BK7-RNDF-50-0.045.STEP',
    '2020-12-22T01:28:36',
    ( '' ),
    ( '' ),
    'SwSTEP 2.0',
    'SolidWorks 2020',
    '' );
FILE_SCHEMA (( 'CONFIG_CONTROL_DESIGN' ));
ENDSEC;

DATA;
#1 = APPROVAL_DATE_TIME ( #159, #38 ) ;
#2 = DIRECTION ( 'NONE',  ( -1.000000000000000000, -0.000000000000000000, -0.000000000000000000 ) ) ;
#3 = VERTEX_POINT ( 'NONE', #167 ) ;
#4 = CARTESIAN_POINT ( 'NONE',  ( -2.694222958124177204E-15, 0.000000000000000000, 0.000000000000000000 ) ) ;
#5 = AXIS2_PLACEMENT_3D ( 'NONE', #70, #67, #6 ) ;
#6 = DIRECTION ( 'NONE',  ( 0.000000000000000000, 0.000000000000000000, 1.000000000000000000 ) ) ;
#7 = MECHANICAL_CONTEXT ( 'NONE', #88, 'mechanical' ) ;
#8 = CARTESIAN_POINT ( 'NONE',  ( -2.694222958124177204E-15, 3.061616997868383043E-15, -25.00000000000000000 ) ) ;
#9 = DATE_AND_TIME ( #132, #106 ) ;
#10 =( GEOMETRIC_REPRESENTATION_CONTEXT ( 3 ) GLOBAL_UNCERTAINTY_ASSIGNED_CONTEXT ( ( #157 ) ) GLOBAL_UNIT_ASSIGNED_CONTEXT ( ( #155, #113, #33 ) ) REPRESENTATION_CONTEXT ( 'NONE', 'WORKASPACE' ) );
#11 = DIRECTION ( 'NONE',  ( 0.000000000000000000, 0.000000000000000000, 1.000000000000000000 ) ) ;
#12 = ORIENTED_EDGE ( 'NONE', *, *, #166, .T. ) ;
#13 = CIRCLE ( 'NONE', #115, 25.00000000000000000 ) ;
#14 = CARTESIAN_POINT ( 'NONE',  ( -2.694222958124177204E-15, 0.000000000000000000, 0.000000000000000000 ) ) ;
#15 = ORIENTED_EDGE ( 'NONE', *, *, #22, .F. ) ;
#16 = FACE_OUTER_BOUND ( 'NONE', #57, .T. ) ;
#17 = AXIS2_PLACEMENT_3D ( 'NONE', #14, #58, #11 ) ;
#18 = COORDINATED_UNIVERSAL_TIME_OFFSET ( 8, 0, .AHEAD. ) ;
#19 = PERSON_AND_ORGANIZATION ( #77, #134 ) ;
#20 = APPLICATION_PROTOCOL_DEFINITION ( 'international standard', 'config_control_design', 1994, #30 ) ;
#21 = EDGE_CURVE ( 'NONE', #128, #153, #13, .T. ) ;
#22 = EDGE_CURVE ( 'NONE', #3, #128, #86, .T. ) ;
#23 = VECTOR ( 'NONE', #2, 1000.000000000000000 ) ;
#24 = EDGE_CURVE ( 'NONE', #139, #3, #59, .T. ) ;
#25 = CC_DESIGN_DATE_AND_TIME_ASSIGNMENT ( #9, #37, ( #40 ) ) ;
#26 = AXIS2_PLACEMENT_3D ( 'NONE', #74, #130, #101 ) ;
#27 = DIRECTION ( 'NONE',  ( -1.000000000000000000, -0.000000000000000000, -0.000000000000000000 ) ) ;
#28 = PLANE ( 'NONE',  #39 ) ;
#29 = LOCAL_TIME ( 9, 28, 36.00000000000000000, #174 ) ;
#30 = APPLICATION_CONTEXT ( 'configuration controlled 3d designs of mechanical parts and assemblies' ) ;
#31 = DIRECTION ( 'NONE',  ( 0.000000000000000000, 0.000000000000000000, 1.000000000000000000 ) ) ;
#32 = DIRECTION ( 'NONE',  ( 0.000000000000000000, 0.000000000000000000, 1.000000000000000000 ) ) ;
#33 =( NAMED_UNIT ( * ) SI_UNIT ( $, .STERADIAN. ) SOLID_ANGLE_UNIT ( ) );
#34 = APPROVAL_ROLE ( '' ) ;
#35 = PERSON_AND_ORGANIZATION ( #77, #134 ) ;
#36 = APPROVAL_PERSON_ORGANIZATION ( #90, #41, #34 ) ;
#37 = DATE_TIME_ROLE ( 'creation_date' ) ;
#38 = APPROVAL ( #91, 'UNSPECIFIED' ) ;
#39 = AXIS2_PLACEMENT_3D ( 'NONE', #111, #165, #46 ) ;
#40 = PRODUCT_DEFINITION ( 'UNKNOWN', '', #105, #79 ) ;
#41 = APPROVAL ( #89, 'UNSPECIFIED' ) ;
#42 = PERSON_AND_ORGANIZATION ( #77, #134 ) ;
#43 = ORIENTED_EDGE ( 'NONE', *, *, #24, .F. ) ;
#44 = VECTOR ( 'NONE', #118, 1000.000000000000000 ) ;
#45 = ADVANCED_BREP_SHAPE_REPRESENTATION ( 'BK7-RNDF-50-0.045', ( #78, #26 ), #10 ) ;
#46 = DIRECTION ( 'NONE',  ( -0.000000000000000000, 0.000000000000000000, 1.000000000000000000 ) ) ;
#47 = CC_DESIGN_PERSON_AND_ORGANIZATION_ASSIGNMENT ( #161, #151, ( #105 ) ) ;
#48 = EDGE_LOOP ( 'NONE', ( #112, #43 ) ) ;
#49 = DIRECTION ( 'NONE',  ( -1.000000000000000000, -0.000000000000000000, -0.000000000000000000 ) ) ;
#50 = DIRECTION ( 'NONE',  ( 0.000000000000000000, 0.000000000000000000, 1.000000000000000000 ) ) ;
#51 = PLANE ( 'NONE',  #80 ) ;
#52 = LOCAL_TIME ( 9, 28, 36.00000000000000000, #169 ) ;
#53 = EDGE_CURVE ( 'NONE', #153, #128, #141, .T. ) ;
#54 = COORDINATED_UNIVERSAL_TIME_OFFSET ( 8, 0, .AHEAD. ) ;
#55 = LOCAL_TIME ( 9, 28, 36.00000000000000000, #18 ) ;
#56 = FACE_OUTER_BOUND ( 'NONE', #48, .T. ) ;
#57 = EDGE_LOOP ( 'NONE', ( #125, #99, #110, #138 ) ) ;
#58 = DIRECTION ( 'NONE',  ( -1.000000000000000000, -0.000000000000000000, -0.000000000000000000 ) ) ;
#59 = CIRCLE ( 'NONE', #124, 25.00000000000000000 ) ;
#60 = CC_DESIGN_PERSON_AND_ORGANIZATION_ASSIGNMENT ( #175, #163, ( #105 ) ) ;
#61 = DIRECTION ( 'NONE',  ( 1.000000000000000000, 0.000000000000000000, 0.000000000000000000 ) ) ;
#62 = LINE ( 'NONE', #156, #44 ) ;
#63 = APPROVAL_PERSON_ORGANIZATION ( #150, #103, #82 ) ;
#64 = CARTESIAN_POINT ( 'NONE',  ( 1.999999999999997113, 0.000000000000000000, 0.000000000000000000 ) ) ;
#65 = CALENDAR_DATE ( 2020, 22, 12 ) ;
#66 = APPROVAL_STATUS ( 'not_yet_approved' ) ;
#67 = DIRECTION ( 'NONE',  ( -1.000000000000000000, -0.000000000000000000, -0.000000000000000000 ) ) ;
#68 = CYLINDRICAL_SURFACE ( 'NONE', #5, 25.00000000000000000 ) ;
#69 = ORIENTED_EDGE ( 'NONE', *, *, #21, .F. ) ;
#70 = CARTESIAN_POINT ( 'NONE',  ( 0.000000000000000000, 0.000000000000000000, 0.000000000000000000 ) ) ;
#71 = APPROVAL_DATE_TIME ( #145, #41 ) ;
#72 = ADVANCED_FACE ( 'NONE', ( #16 ), #68, .T. ) ;
#73 = PRODUCT_DEFINITION_SHAPE ( 'NONE', 'NONE',  #40 ) ;
#74 = CARTESIAN_POINT ( 'NONE',  ( 0.000000000000000000, 0.000000000000000000, 0.000000000000000000 ) ) ;
#75 = CARTESIAN_POINT ( 'NONE',  ( 1.999999999999997113, 3.061616997868383043E-15, -25.00000000000000000 ) ) ;
#76 = CLOSED_SHELL ( 'NONE', ( #87, #72, #92, #135 ) ) ;
#77 = PERSON ( 'UNSPECIFIED', 'UNSPECIFIED', 'UNSPECIFIED', ('UNSPECIFIED'), ('UNSPECIFIED'), ('UNSPECIFIED') ) ;
#78 = MANIFOLD_SOLID_BREP ( 'Ðý×', #76 ) ;
#79 = DESIGN_CONTEXT ( 'detailed design', #30, 'design' ) ;
#80 = AXIS2_PLACEMENT_3D ( 'NONE', #100, #61, #171 ) ;
#81 = DATE_AND_TIME ( #65, #29 ) ;
#82 = APPROVAL_ROLE ( '' ) ;
#83 = DIRECTION ( 'NONE',  ( 0.000000000000000000, 0.000000000000000000, 1.000000000000000000 ) ) ;
#84 = EDGE_LOOP ( 'NONE', ( #154, #12, #69, #15 ) ) ;
#85 = PRODUCT_RELATED_PRODUCT_CATEGORY ( 'detail', '', ( #136 ) ) ;
#86 = LINE ( 'NONE', #143, #23 ) ;
#87 = ADVANCED_FACE ( 'NONE', ( #152 ), #109, .T. ) ;
#88 = APPLICATION_CONTEXT ( 'configuration controlled 3d designs of mechanical parts and assemblies' ) ;
#89 = APPROVAL_STATUS ( 'not_yet_approved' ) ;
#90 = PERSON_AND_ORGANIZATION ( #77, #134 ) ;
#91 = APPROVAL_STATUS ( 'not_yet_approved' ) ;
#92 = ADVANCED_FACE ( 'NONE', ( #56 ), #28, .F. ) ;
#93 = DATE_AND_TIME ( #148, #140 ) ;
#94 = DIRECTION ( 'NONE',  ( -1.000000000000000000, -0.000000000000000000, -0.000000000000000000 ) ) ;
#95 = PERSON_AND_ORGANIZATION_ROLE ( 'classification_officer' ) ;
#96 = CARTESIAN_POINT ( 'NONE',  ( 0.000000000000000000, 0.000000000000000000, 0.000000000000000000 ) ) ;
#97 = ORIENTED_EDGE ( 'NONE', *, *, #21, .T. ) ;
#98 = CARTESIAN_POINT ( 'NONE',  ( 1.999999999999997113, 0.000000000000000000, 0.000000000000000000 ) ) ;
#99 = ORIENTED_EDGE ( 'NONE', *, *, #24, .T. ) ;
#100 = CARTESIAN_POINT ( 'NONE',  ( -1.347111479062088602E-15, 25.00000000000000000, 0.000000000000000000 ) ) ;
#101 = DIRECTION ( 'NONE',  ( 1.000000000000000000, 0.000000000000000000, 0.000000000000000000 ) ) ;
#102 = CC_DESIGN_PERSON_AND_ORGANIZATION_ASSIGNMENT ( #35, #116, ( #136 ) ) ;
#103 = APPROVAL ( #66, 'UNSPECIFIED' ) ;
#104 = CALENDAR_DATE ( 2020, 22, 12 ) ;
#105 = PRODUCT_DEFINITION_FORMATION_WITH_SPECIFIED_SOURCE ( 'ANY', '', #136, .NOT_KNOWN. ) ;
#106 = LOCAL_TIME ( 9, 28, 36.00000000000000000, #172 ) ;
#107 = CC_DESIGN_PERSON_AND_ORGANIZATION_ASSIGNMENT ( #19, #146, ( #40 ) ) ;
#108 = APPROVAL_DATE_TIME ( #81, #103 ) ;
#109 = CYLINDRICAL_SURFACE ( 'NONE', #170, 25.00000000000000000 ) ;
#110 = ORIENTED_EDGE ( 'NONE', *, *, #22, .T. ) ;
#111 = CARTESIAN_POINT ( 'NONE',  ( 1.999999999999998224, 25.00000000000000000, 0.000000000000000000 ) ) ;
#112 = ORIENTED_EDGE ( 'NONE', *, *, #162, .F. ) ;
#113 =( NAMED_UNIT ( * ) PLANE_ANGLE_UNIT ( ) SI_UNIT ( $, .RADIAN. ) );
#114 = PERSON_AND_ORGANIZATION ( #77, #134 ) ;
#115 = AXIS2_PLACEMENT_3D ( 'NONE', #4, #142, #32 ) ;
#116 = PERSON_AND_ORGANIZATION_ROLE ( 'design_owner' ) ;
#117 = CC_DESIGN_DATE_AND_TIME_ASSIGNMENT ( #93, #121, ( #122 ) ) ;
#118 = DIRECTION ( 'NONE',  ( -1.000000000000000000, -0.000000000000000000, -0.000000000000000000 ) ) ;
#119 = AXIS2_PLACEMENT_3D ( 'NONE', #64, #49, #50 ) ;
#120 = CC_DESIGN_APPROVAL ( #103, ( #122 ) ) ;
#121 = DATE_TIME_ROLE ( 'classification_date' ) ;
#122 = SECURITY_CLASSIFICATION ( '', '', #160 ) ;
#123 = SHAPE_DEFINITION_REPRESENTATION ( #73, #45 ) ;
#124 = AXIS2_PLACEMENT_3D ( 'NONE', #98, #94, #31 ) ;
#125 = ORIENTED_EDGE ( 'NONE', *, *, #166, .F. ) ;
#126 = APPROVAL_PERSON_ORGANIZATION ( #114, #38, #129 ) ;
#127 = CIRCLE ( 'NONE', #119, 25.00000000000000000 ) ;
#128 = VERTEX_POINT ( 'NONE', #131 ) ;
#129 = APPROVAL_ROLE ( '' ) ;
#130 = DIRECTION ( 'NONE',  ( 0.000000000000000000, 0.000000000000000000, 1.000000000000000000 ) ) ;
#131 = CARTESIAN_POINT ( 'NONE',  ( -2.694222958124177204E-15, 0.000000000000000000, 25.00000000000000000 ) ) ;
#132 = CALENDAR_DATE ( 2020, 22, 12 ) ;
#133 = FACE_OUTER_BOUND ( 'NONE', #168, .T. ) ;
#134 = ORGANIZATION ( 'UNSPECIFIED', 'UNSPECIFIED', '' ) ;
#135 = ADVANCED_FACE ( 'NONE', ( #133 ), #51, .F. ) ;
#136 = PRODUCT ( 'BK7-RNDF-50-0.045', 'BK7-RNDF-50-0.045', '', ( #7 ) ) ;
#137 = CC_DESIGN_APPROVAL ( #41, ( #40 ) ) ;
#138 = ORIENTED_EDGE ( 'NONE', *, *, #53, .F. ) ;
#139 = VERTEX_POINT ( 'NONE', #75 ) ;
#140 = LOCAL_TIME ( 9, 28, 36.00000000000000000, #54 ) ;
#141 = CIRCLE ( 'NONE', #17, 25.00000000000000000 ) ;
#142 = DIRECTION ( 'NONE',  ( -1.000000000000000000, -0.000000000000000000, -0.000000000000000000 ) ) ;
#143 = CARTESIAN_POINT ( 'NONE',  ( 0.000000000000000000, 0.000000000000000000, 25.00000000000000000 ) ) ;
#144 = APPLICATION_PROTOCOL_DEFINITION ( 'international standard', 'config_control_design', 1994, #88 ) ;
#145 = DATE_AND_TIME ( #104, #55 ) ;
#146 = PERSON_AND_ORGANIZATION_ROLE ( 'creator' ) ;
#147 = CALENDAR_DATE ( 2020, 22, 12 ) ;
#148 = CALENDAR_DATE ( 2020, 22, 12 ) ;
#149 = CC_DESIGN_APPROVAL ( #38, ( #105 ) ) ;
#150 = PERSON_AND_ORGANIZATION ( #77, #134 ) ;
#151 = PERSON_AND_ORGANIZATION_ROLE ( 'design_supplier' ) ;
#152 = FACE_OUTER_BOUND ( 'NONE', #84, .T. ) ;
#153 = VERTEX_POINT ( 'NONE', #8 ) ;
#154 = ORIENTED_EDGE ( 'NONE', *, *, #162, .T. ) ;
#155 =( LENGTH_UNIT ( ) NAMED_UNIT ( * ) SI_UNIT ( .MILLI., .METRE. ) );
#156 = CARTESIAN_POINT ( 'NONE',  ( 0.000000000000000000, 3.061616997868383043E-15, -25.00000000000000000 ) ) ;
#157 = UNCERTAINTY_MEASURE_WITH_UNIT (LENGTH_MEASURE( 1.000000000000000082E-05 ), #155, 'distance_accuracy_value', 'NONE');
#158 = CC_DESIGN_PERSON_AND_ORGANIZATION_ASSIGNMENT ( #42, #95, ( #122 ) ) ;
#159 = DATE_AND_TIME ( #147, #52 ) ;
#160 = SECURITY_CLASSIFICATION_LEVEL ( 'unclassified' ) ;
#161 = PERSON_AND_ORGANIZATION ( #77, #134 ) ;
#162 = EDGE_CURVE ( 'NONE', #3, #139, #127, .T. ) ;
#163 = PERSON_AND_ORGANIZATION_ROLE ( 'creator' ) ;
#164 = ORIENTED_EDGE ( 'NONE', *, *, #53, .T. ) ;
#165 = DIRECTION ( 'NONE',  ( -1.000000000000000000, 0.000000000000000000, -0.000000000000000000 ) ) ;
#166 = EDGE_CURVE ( 'NONE', #139, #153, #62, .T. ) ;
#167 = CARTESIAN_POINT ( 'NONE',  ( 1.999999999999997113, 0.000000000000000000, 25.00000000000000000 ) ) ;
#168 = EDGE_LOOP ( 'NONE', ( #97, #164 ) ) ;
#169 = COORDINATED_UNIVERSAL_TIME_OFFSET ( 8, 0, .AHEAD. ) ;
#170 = AXIS2_PLACEMENT_3D ( 'NONE', #96, #27, #83 ) ;
#171 = DIRECTION ( 'NONE',  ( 0.000000000000000000, 0.000000000000000000, -1.000000000000000000 ) ) ;
#172 = COORDINATED_UNIVERSAL_TIME_OFFSET ( 8, 0, .AHEAD. ) ;
#173 = CC_DESIGN_SECURITY_CLASSIFICATION ( #122, ( #105 ) ) ;
#174 = COORDINATED_UNIVERSAL_TIME_OFFSET ( 8, 0, .AHEAD. ) ;
#175 = PERSON_AND_ORGANIZATION ( #77, #134 ) ;
ENDSEC;
END-ISO-10303-21;
